ISO-10303-21;
HEADER;
FILE_DESCRIPTION((''),'2;1');
FILE_NAME('LAY5S-FM','2023-10-25T',('sipei.wu'),(''),
'PRO/ENGINEER BY PARAMETRIC TECHNOLOGY CORPORATION, 2015440',
'PRO/ENGINEER BY PARAMETRIC TECHNOLOGY CORPORATION, 2015440','');
FILE_SCHEMA(('CONFIG_CONTROL_DESIGN'));
ENDSEC;
DATA;
#1=DIRECTION('',(0.E0,1.E0,0.E0));
#2=VECTOR('',#1,4.15E1);
#3=CARTESIAN_POINT('',(1.E1,-5.E1,0.E0));
#4=LINE('',#3,#2);
#5=DIRECTION('',(0.E0,1.E0,0.E0));
#6=VECTOR('',#5,4.15E1);
#7=CARTESIAN_POINT('',(-1.E1,-5.E1,0.E0));
#8=LINE('',#7,#6);
#9=CARTESIAN_POINT('',(-1.175190850841E-14,-5.E1,0.E0));
#10=DIRECTION('',(0.E0,1.E0,0.E0));
#11=DIRECTION('',(1.E0,0.E0,0.E0));
#12=AXIS2_PLACEMENT_3D('',#9,#10,#11);
#14=CARTESIAN_POINT('',(-1.175190850841E-14,-5.E1,0.E0));
#15=DIRECTION('',(0.E0,-1.E0,0.E0));
#16=DIRECTION('',(1.E0,0.E0,0.E0));
#17=AXIS2_PLACEMENT_3D('',#14,#15,#16);
#19=CARTESIAN_POINT('',(0.E0,-8.5E0,0.E0));
#20=DIRECTION('',(0.E0,-1.E0,0.E0));
#21=DIRECTION('',(1.E0,0.E0,0.E0));
#22=AXIS2_PLACEMENT_3D('',#19,#20,#21);
#24=CARTESIAN_POINT('',(0.E0,-8.5E0,0.E0));
#25=DIRECTION('',(0.E0,1.E0,0.E0));
#26=DIRECTION('',(1.E0,0.E0,0.E0));
#27=AXIS2_PLACEMENT_3D('',#24,#25,#26);
#29=DIRECTION('',(0.E0,1.E0,0.E0));
#30=VECTOR('',#29,2.5E0);
#31=CARTESIAN_POINT('',(1.35E1,-8.5E0,0.E0));
#32=LINE('',#31,#30);
#33=DIRECTION('',(0.E0,1.E0,0.E0));
#34=VECTOR('',#33,2.5E0);
#35=CARTESIAN_POINT('',(-1.35E1,-8.5E0,0.E0));
#36=LINE('',#35,#34);
#37=CARTESIAN_POINT('',(0.E0,-8.5E0,0.E0));
#38=DIRECTION('',(0.E0,1.E0,0.E0));
#39=DIRECTION('',(1.E0,0.E0,0.E0));
#40=AXIS2_PLACEMENT_3D('',#37,#38,#39);
#42=CARTESIAN_POINT('',(0.E0,-8.5E0,0.E0));
#43=DIRECTION('',(0.E0,-1.E0,0.E0));
#44=DIRECTION('',(1.E0,0.E0,0.E0));
#45=AXIS2_PLACEMENT_3D('',#42,#43,#44);
#47=CARTESIAN_POINT('',(0.E0,-6.E0,0.E0));
#48=DIRECTION('',(0.E0,-1.E0,0.E0));
#49=DIRECTION('',(1.E0,0.E0,0.E0));
#50=AXIS2_PLACEMENT_3D('',#47,#48,#49);
#52=CARTESIAN_POINT('',(0.E0,-6.E0,0.E0));
#53=DIRECTION('',(0.E0,1.E0,0.E0));
#54=DIRECTION('',(1.E0,0.E0,0.E0));
#55=AXIS2_PLACEMENT_3D('',#52,#53,#54);
#57=DIRECTION('',(0.E0,1.E0,0.E0));
#58=VECTOR('',#57,3.E0);
#59=CARTESIAN_POINT('',(1.45E1,-6.E0,0.E0));
#60=LINE('',#59,#58);
#61=DIRECTION('',(0.E0,1.E0,0.E0));
#62=VECTOR('',#61,3.E0);
#63=CARTESIAN_POINT('',(-1.45E1,-6.E0,0.E0));
#64=LINE('',#63,#62);
#65=CARTESIAN_POINT('',(0.E0,-6.E0,0.E0));
#66=DIRECTION('',(0.E0,1.E0,0.E0));
#67=DIRECTION('',(1.E0,0.E0,0.E0));
#68=AXIS2_PLACEMENT_3D('',#65,#66,#67);
#70=CARTESIAN_POINT('',(0.E0,-6.E0,0.E0));
#71=DIRECTION('',(0.E0,-1.E0,0.E0));
#72=DIRECTION('',(1.E0,0.E0,0.E0));
#73=AXIS2_PLACEMENT_3D('',#70,#71,#72);
#75=CARTESIAN_POINT('',(0.E0,-3.E0,0.E0));
#76=DIRECTION('',(0.E0,-1.E0,0.E0));
#77=DIRECTION('',(1.E0,0.E0,0.E0));
#78=AXIS2_PLACEMENT_3D('',#75,#76,#77);
#80=CARTESIAN_POINT('',(0.E0,-3.E0,0.E0));
#81=DIRECTION('',(0.E0,1.E0,0.E0));
#82=DIRECTION('',(1.E0,0.E0,0.E0));
#83=AXIS2_PLACEMENT_3D('',#80,#81,#82);
#85=DIRECTION('',(0.E0,1.E0,0.E0));
#86=VECTOR('',#85,3.E0);
#87=CARTESIAN_POINT('',(1.E1,-3.E0,0.E0));
#88=LINE('',#87,#86);
#89=DIRECTION('',(0.E0,1.E0,0.E0));
#90=VECTOR('',#89,3.E0);
#91=CARTESIAN_POINT('',(-1.E1,-3.E0,0.E0));
#92=LINE('',#91,#90);
#93=CARTESIAN_POINT('',(0.E0,-3.E0,0.E0));
#94=DIRECTION('',(0.E0,1.E0,0.E0));
#95=DIRECTION('',(1.E0,0.E0,0.E0));
#96=AXIS2_PLACEMENT_3D('',#93,#94,#95);
#98=CARTESIAN_POINT('',(0.E0,-3.E0,0.E0));
#99=DIRECTION('',(0.E0,-1.E0,0.E0));
#100=DIRECTION('',(1.E0,0.E0,0.E0));
#101=AXIS2_PLACEMENT_3D('',#98,#99,#100);
#103=CARTESIAN_POINT('',(0.E0,0.E0,0.E0));
#104=DIRECTION('',(0.E0,-1.E0,0.E0));
#105=DIRECTION('',(1.E0,0.E0,0.E0));
#106=AXIS2_PLACEMENT_3D('',#103,#104,#105);
#108=CARTESIAN_POINT('',(0.E0,0.E0,0.E0));
#109=DIRECTION('',(0.E0,1.E0,0.E0));
#110=DIRECTION('',(1.E0,0.E0,0.E0));
#111=AXIS2_PLACEMENT_3D('',#108,#109,#110);
#113=DIRECTION('',(0.E0,1.E0,0.E0));
#114=VECTOR('',#113,6.E0);
#115=CARTESIAN_POINT('',(1.5E1,0.E0,0.E0));
#116=LINE('',#115,#114);
#117=DIRECTION('',(0.E0,1.E0,0.E0));
#118=VECTOR('',#117,6.E0);
#119=CARTESIAN_POINT('',(-1.5E1,0.E0,0.E0));
#120=LINE('',#119,#118);
#121=CARTESIAN_POINT('',(0.E0,-1.065814103640E-14,0.E0));
#122=DIRECTION('',(0.E0,1.E0,0.E0));
#123=DIRECTION('',(1.E0,0.E0,0.E0));
#124=AXIS2_PLACEMENT_3D('',#121,#122,#123);
#126=CARTESIAN_POINT('',(0.E0,-1.065814103640E-14,0.E0));
#127=DIRECTION('',(0.E0,-1.E0,0.E0));
#128=DIRECTION('',(1.E0,0.E0,0.E0));
#129=AXIS2_PLACEMENT_3D('',#126,#127,#128);
#131=CARTESIAN_POINT('',(0.E0,6.E0,0.E0));
#132=DIRECTION('',(0.E0,-1.E0,0.E0));
#133=DIRECTION('',(1.E0,0.E0,0.E0));
#134=AXIS2_PLACEMENT_3D('',#131,#132,#133);
#136=DIRECTION('',(-3.747366058910E-2,9.992976157092E-1,0.E0));
#137=VECTOR('',#136,8.005623023850E0);
#138=CARTESIAN_POINT('',(1.5E1,6.E0,0.E0));
#139=LINE('',#138,#137);
#140=DIRECTION('',(3.747366058910E-2,9.992976157092E-1,0.E0));
#141=VECTOR('',#140,8.005623023850E0);
#142=CARTESIAN_POINT('',(-1.5E1,6.E0,0.E0));
#143=LINE('',#142,#141);
#144=CARTESIAN_POINT('',(0.E0,6.E0,0.E0));
#145=DIRECTION('',(0.E0,1.E0,0.E0));
#146=DIRECTION('',(1.E0,0.E0,0.E0));
#147=AXIS2_PLACEMENT_3D('',#144,#145,#146);
#149=CARTESIAN_POINT('',(0.E0,1.4E1,0.E0));
#150=DIRECTION('',(0.E0,1.E0,0.E0));
#151=DIRECTION('',(1.E0,0.E0,0.E0));
#152=AXIS2_PLACEMENT_3D('',#149,#150,#151);
#154=CARTESIAN_POINT('',(0.E0,1.4E1,0.E0));
#155=DIRECTION('',(0.E0,-1.E0,0.E0));
#156=DIRECTION('',(1.E0,0.E0,0.E0));
#157=AXIS2_PLACEMENT_3D('',#154,#155,#156);
#159=CARTESIAN_POINT('',(1.E1,-5.E1,0.E0));
#160=CARTESIAN_POINT('',(1.E1,-8.5E0,0.E0));
#161=VERTEX_POINT('',#159);
#162=VERTEX_POINT('',#160);
#163=CARTESIAN_POINT('',(1.45E1,-6.E0,0.E0));
#164=CARTESIAN_POINT('',(1.45E1,-3.E0,0.E0));
#165=VERTEX_POINT('',#163);
#166=VERTEX_POINT('',#164);
#167=CARTESIAN_POINT('',(1.E1,-3.E0,0.E0));
#168=CARTESIAN_POINT('',(1.E1,0.E0,0.E0));
#169=VERTEX_POINT('',#167);
#170=VERTEX_POINT('',#168);
#171=CARTESIAN_POINT('',(-1.E1,-5.E1,0.E0));
#172=CARTESIAN_POINT('',(-1.E1,-8.5E0,0.E0));
#173=VERTEX_POINT('',#171);
#174=VERTEX_POINT('',#172);
#175=CARTESIAN_POINT('',(-1.45E1,-6.E0,0.E0));
#176=CARTESIAN_POINT('',(-1.45E1,-3.E0,0.E0));
#177=VERTEX_POINT('',#175);
#178=VERTEX_POINT('',#176);
#179=CARTESIAN_POINT('',(-1.E1,-3.E0,0.E0));
#180=CARTESIAN_POINT('',(-1.E1,0.E0,0.E0));
#181=VERTEX_POINT('',#179);
#182=VERTEX_POINT('',#180);
#183=CARTESIAN_POINT('',(1.35E1,-8.5E0,0.E0));
#184=CARTESIAN_POINT('',(1.35E1,-6.E0,0.E0));
#185=VERTEX_POINT('',#183);
#186=VERTEX_POINT('',#184);
#187=CARTESIAN_POINT('',(-1.35E1,-8.5E0,0.E0));
#188=CARTESIAN_POINT('',(-1.35E1,-6.E0,0.E0));
#189=VERTEX_POINT('',#187);
#190=VERTEX_POINT('',#188);
#191=CARTESIAN_POINT('',(1.5E1,0.E0,0.E0));
#192=CARTESIAN_POINT('',(1.5E1,6.E0,0.E0));
#193=VERTEX_POINT('',#191);
#194=VERTEX_POINT('',#192);
#195=CARTESIAN_POINT('',(1.47E1,1.4E1,0.E0));
#196=VERTEX_POINT('',#195);
#197=CARTESIAN_POINT('',(-1.5E1,0.E0,0.E0));
#198=CARTESIAN_POINT('',(-1.5E1,6.E0,0.E0));
#199=VERTEX_POINT('',#197);
#200=VERTEX_POINT('',#198);
#201=CARTESIAN_POINT('',(-1.47E1,1.4E1,0.E0));
#202=VERTEX_POINT('',#201);
#203=CARTESIAN_POINT('',(-1.175190850841E-14,-5.E1,0.E0));
#204=DIRECTION('',(0.E0,-1.E0,0.E0));
#205=DIRECTION('',(-1.E0,0.E0,0.E0));
#206=AXIS2_PLACEMENT_3D('',#203,#204,#205);
#207=PLANE('',#206);
#209=ORIENTED_EDGE('',*,*,#208,.T.);
#211=ORIENTED_EDGE('',*,*,#210,.F.);
#212=EDGE_LOOP('',(#209,#211));
#213=FACE_OUTER_BOUND('',#212,.F.);
#214=ADVANCED_FACE('',(#213),#207,.T.);
#215=CARTESIAN_POINT('',(0.E0,1.72E1,0.E0));
#216=DIRECTION('',(0.E0,-1.E0,0.E0));
#217=DIRECTION('',(-1.E0,0.E0,0.E0));
#218=AXIS2_PLACEMENT_3D('',#215,#216,#217);
#219=CYLINDRICAL_SURFACE('',#218,1.E1);
#221=ORIENTED_EDGE('',*,*,#220,.T.);
#223=ORIENTED_EDGE('',*,*,#222,.T.);
#225=ORIENTED_EDGE('',*,*,#224,.F.);
#226=ORIENTED_EDGE('',*,*,#208,.F.);
#227=EDGE_LOOP('',(#221,#223,#225,#226));
#228=FACE_OUTER_BOUND('',#227,.F.);
#229=ADVANCED_FACE('',(#228),#219,.T.);
#230=CARTESIAN_POINT('',(0.E0,1.72E1,0.E0));
#231=DIRECTION('',(0.E0,-1.E0,0.E0));
#232=DIRECTION('',(-1.E0,0.E0,0.E0));
#233=AXIS2_PLACEMENT_3D('',#230,#231,#232);
#234=CYLINDRICAL_SURFACE('',#233,1.E1);
#235=ORIENTED_EDGE('',*,*,#220,.F.);
#236=ORIENTED_EDGE('',*,*,#210,.T.);
#237=ORIENTED_EDGE('',*,*,#224,.T.);
#239=ORIENTED_EDGE('',*,*,#238,.F.);
#240=EDGE_LOOP('',(#235,#236,#237,#239));
#241=FACE_OUTER_BOUND('',#240,.F.);
#242=ADVANCED_FACE('',(#241),#234,.T.);
#243=CARTESIAN_POINT('',(0.E0,-8.5E0,0.E0));
#244=DIRECTION('',(0.E0,-1.E0,0.E0));
#245=DIRECTION('',(-1.E0,0.E0,0.E0));
#246=AXIS2_PLACEMENT_3D('',#243,#244,#245);
#247=PLANE('',#246);
#249=ORIENTED_EDGE('',*,*,#248,.T.);
#251=ORIENTED_EDGE('',*,*,#250,.F.);
#252=EDGE_LOOP('',(#249,#251));
#253=FACE_OUTER_BOUND('',#252,.F.);
#254=ORIENTED_EDGE('',*,*,#238,.T.);
#255=ORIENTED_EDGE('',*,*,#222,.F.);
#256=EDGE_LOOP('',(#254,#255));
#257=FACE_BOUND('',#256,.F.);
#258=ADVANCED_FACE('',(#253,#257),#247,.T.);
#259=CARTESIAN_POINT('',(0.E0,1.72E1,0.E0));
#260=DIRECTION('',(0.E0,-1.E0,0.E0));
#261=DIRECTION('',(-1.E0,0.E0,0.E0));
#262=AXIS2_PLACEMENT_3D('',#259,#260,#261);
#263=CYLINDRICAL_SURFACE('',#262,1.35E1);
#265=ORIENTED_EDGE('',*,*,#264,.T.);
#267=ORIENTED_EDGE('',*,*,#266,.T.);
#269=ORIENTED_EDGE('',*,*,#268,.F.);
#270=ORIENTED_EDGE('',*,*,#248,.F.);
#271=EDGE_LOOP('',(#265,#267,#269,#270));
#272=FACE_OUTER_BOUND('',#271,.F.);
#273=ADVANCED_FACE('',(#272),#263,.T.);
#274=CARTESIAN_POINT('',(0.E0,1.72E1,0.E0));
#275=DIRECTION('',(0.E0,-1.E0,0.E0));
#276=DIRECTION('',(-1.E0,0.E0,0.E0));
#277=AXIS2_PLACEMENT_3D('',#274,#275,#276);
#278=CYLINDRICAL_SURFACE('',#277,1.35E1);
#279=ORIENTED_EDGE('',*,*,#264,.F.);
#280=ORIENTED_EDGE('',*,*,#250,.T.);
#281=ORIENTED_EDGE('',*,*,#268,.T.);
#283=ORIENTED_EDGE('',*,*,#282,.F.);
#284=EDGE_LOOP('',(#279,#280,#281,#283));
#285=FACE_OUTER_BOUND('',#284,.F.);
#286=ADVANCED_FACE('',(#285),#278,.T.);
#287=CARTESIAN_POINT('',(0.E0,-6.E0,0.E0));
#288=DIRECTION('',(0.E0,-1.E0,0.E0));
#289=DIRECTION('',(-1.E0,0.E0,0.E0));
#290=AXIS2_PLACEMENT_3D('',#287,#288,#289);
#291=PLANE('',#290);
#293=ORIENTED_EDGE('',*,*,#292,.T.);
#295=ORIENTED_EDGE('',*,*,#294,.F.);
#296=EDGE_LOOP('',(#293,#295));
#297=FACE_OUTER_BOUND('',#296,.F.);
#298=ORIENTED_EDGE('',*,*,#282,.T.);
#299=ORIENTED_EDGE('',*,*,#266,.F.);
#300=EDGE_LOOP('',(#298,#299));
#301=FACE_BOUND('',#300,.F.);
#302=ADVANCED_FACE('',(#297,#301),#291,.T.);
#303=CARTESIAN_POINT('',(0.E0,1.72E1,0.E0));
#304=DIRECTION('',(0.E0,-1.E0,0.E0));
#305=DIRECTION('',(-1.E0,0.E0,0.E0));
#306=AXIS2_PLACEMENT_3D('',#303,#304,#305);
#307=CYLINDRICAL_SURFACE('',#306,1.45E1);
#309=ORIENTED_EDGE('',*,*,#308,.T.);
#311=ORIENTED_EDGE('',*,*,#310,.T.);
#313=ORIENTED_EDGE('',*,*,#312,.F.);
#314=ORIENTED_EDGE('',*,*,#292,.F.);
#315=EDGE_LOOP('',(#309,#311,#313,#314));
#316=FACE_OUTER_BOUND('',#315,.F.);
#317=ADVANCED_FACE('',(#316),#307,.T.);
#318=CARTESIAN_POINT('',(0.E0,1.72E1,0.E0));
#319=DIRECTION('',(0.E0,-1.E0,0.E0));
#320=DIRECTION('',(-1.E0,0.E0,0.E0));
#321=AXIS2_PLACEMENT_3D('',#318,#319,#320);
#322=CYLINDRICAL_SURFACE('',#321,1.45E1);
#323=ORIENTED_EDGE('',*,*,#308,.F.);
#324=ORIENTED_EDGE('',*,*,#294,.T.);
#325=ORIENTED_EDGE('',*,*,#312,.T.);
#327=ORIENTED_EDGE('',*,*,#326,.F.);
#328=EDGE_LOOP('',(#323,#324,#325,#327));
#329=FACE_OUTER_BOUND('',#328,.F.);
#330=ADVANCED_FACE('',(#329),#322,.T.);
#331=CARTESIAN_POINT('',(0.E0,-3.E0,0.E0));
#332=DIRECTION('',(0.E0,-1.E0,0.E0));
#333=DIRECTION('',(-1.E0,0.E0,0.E0));
#334=AXIS2_PLACEMENT_3D('',#331,#332,#333);
#335=PLANE('',#334);
#336=ORIENTED_EDGE('',*,*,#326,.T.);
#337=ORIENTED_EDGE('',*,*,#310,.F.);
#338=EDGE_LOOP('',(#336,#337));
#339=FACE_OUTER_BOUND('',#338,.F.);
#341=ORIENTED_EDGE('',*,*,#340,.T.);
#343=ORIENTED_EDGE('',*,*,#342,.F.);
#344=EDGE_LOOP('',(#341,#343));
#345=FACE_BOUND('',#344,.F.);
#346=ADVANCED_FACE('',(#339,#345),#335,.F.);
#347=CARTESIAN_POINT('',(0.E0,1.72E1,0.E0));
#348=DIRECTION('',(0.E0,-1.E0,0.E0));
#349=DIRECTION('',(-1.E0,0.E0,0.E0));
#350=AXIS2_PLACEMENT_3D('',#347,#348,#349);
#351=CYLINDRICAL_SURFACE('',#350,1.E1);
#353=ORIENTED_EDGE('',*,*,#352,.T.);
#355=ORIENTED_EDGE('',*,*,#354,.T.);
#357=ORIENTED_EDGE('',*,*,#356,.F.);
#358=ORIENTED_EDGE('',*,*,#340,.F.);
#359=EDGE_LOOP('',(#353,#355,#357,#358));
#360=FACE_OUTER_BOUND('',#359,.F.);
#361=ADVANCED_FACE('',(#360),#351,.T.);
#362=CARTESIAN_POINT('',(0.E0,1.72E1,0.E0));
#363=DIRECTION('',(0.E0,-1.E0,0.E0));
#364=DIRECTION('',(-1.E0,0.E0,0.E0));
#365=AXIS2_PLACEMENT_3D('',#362,#363,#364);
#366=CYLINDRICAL_SURFACE('',#365,1.E1);
#367=ORIENTED_EDGE('',*,*,#352,.F.);
#368=ORIENTED_EDGE('',*,*,#342,.T.);
#369=ORIENTED_EDGE('',*,*,#356,.T.);
#371=ORIENTED_EDGE('',*,*,#370,.F.);
#372=EDGE_LOOP('',(#367,#368,#369,#371));
#373=FACE_OUTER_BOUND('',#372,.F.);
#374=ADVANCED_FACE('',(#373),#366,.T.);
#375=CARTESIAN_POINT('',(0.E0,0.E0,0.E0));
#376=DIRECTION('',(0.E0,-1.E0,0.E0));
#377=DIRECTION('',(-1.E0,0.E0,0.E0));
#378=AXIS2_PLACEMENT_3D('',#375,#376,#377);
#379=PLANE('',#378);
#381=ORIENTED_EDGE('',*,*,#380,.T.);
#383=ORIENTED_EDGE('',*,*,#382,.F.);
#384=EDGE_LOOP('',(#381,#383));
#385=FACE_OUTER_BOUND('',#384,.F.);
#386=ORIENTED_EDGE('',*,*,#370,.T.);
#387=ORIENTED_EDGE('',*,*,#354,.F.);
#388=EDGE_LOOP('',(#386,#387));
#389=FACE_BOUND('',#388,.F.);
#390=ADVANCED_FACE('',(#385,#389),#379,.T.);
#391=CARTESIAN_POINT('',(0.E0,1.72E1,0.E0));
#392=DIRECTION('',(0.E0,-1.E0,0.E0));
#393=DIRECTION('',(-1.E0,0.E0,0.E0));
#394=AXIS2_PLACEMENT_3D('',#391,#392,#393);
#395=CYLINDRICAL_SURFACE('',#394,1.5E1);
#397=ORIENTED_EDGE('',*,*,#396,.T.);
#399=ORIENTED_EDGE('',*,*,#398,.T.);
#401=ORIENTED_EDGE('',*,*,#400,.F.);
#402=ORIENTED_EDGE('',*,*,#380,.F.);
#403=EDGE_LOOP('',(#397,#399,#401,#402));
#404=FACE_OUTER_BOUND('',#403,.F.);
#405=ADVANCED_FACE('',(#404),#395,.T.);
#406=CARTESIAN_POINT('',(0.E0,1.72E1,0.E0));
#407=DIRECTION('',(0.E0,-1.E0,0.E0));
#408=DIRECTION('',(-1.E0,0.E0,0.E0));
#409=AXIS2_PLACEMENT_3D('',#406,#407,#408);
#410=CYLINDRICAL_SURFACE('',#409,1.5E1);
#411=ORIENTED_EDGE('',*,*,#396,.F.);
#412=ORIENTED_EDGE('',*,*,#382,.T.);
#413=ORIENTED_EDGE('',*,*,#400,.T.);
#415=ORIENTED_EDGE('',*,*,#414,.F.);
#416=EDGE_LOOP('',(#411,#412,#413,#415));
#417=FACE_OUTER_BOUND('',#416,.F.);
#418=ADVANCED_FACE('',(#417),#410,.T.);
#419=CARTESIAN_POINT('',(0.E0,1.E1,0.E0));
#420=DIRECTION('',(0.E0,-1.E0,0.E0));
#421=DIRECTION('',(-1.E0,0.E0,0.E0));
#422=AXIS2_PLACEMENT_3D('',#419,#420,#421);
#423=CONICAL_SURFACE('',#422,1.485E1,2.147585428299E0);
#425=ORIENTED_EDGE('',*,*,#424,.F.);
#426=ORIENTED_EDGE('',*,*,#414,.T.);
#428=ORIENTED_EDGE('',*,*,#427,.T.);
#430=ORIENTED_EDGE('',*,*,#429,.F.);
#431=EDGE_LOOP('',(#425,#426,#428,#430));
#432=FACE_OUTER_BOUND('',#431,.F.);
#433=ADVANCED_FACE('',(#432),#423,.T.);
#434=CARTESIAN_POINT('',(0.E0,1.E1,0.E0));
#435=DIRECTION('',(0.E0,-1.E0,0.E0));
#436=DIRECTION('',(-1.E0,0.E0,0.E0));
#437=AXIS2_PLACEMENT_3D('',#434,#435,#436);
#438=CONICAL_SURFACE('',#437,1.485E1,2.147585428299E0);
#439=ORIENTED_EDGE('',*,*,#424,.T.);
#441=ORIENTED_EDGE('',*,*,#440,.T.);
#442=ORIENTED_EDGE('',*,*,#427,.F.);
#443=ORIENTED_EDGE('',*,*,#398,.F.);
#444=EDGE_LOOP('',(#439,#441,#442,#443));
#445=FACE_OUTER_BOUND('',#444,.F.);
#446=ADVANCED_FACE('',(#445),#438,.T.);
#447=CARTESIAN_POINT('',(0.E0,1.4E1,0.E0));
#448=DIRECTION('',(0.E0,-1.E0,0.E0));
#449=DIRECTION('',(-1.E0,0.E0,0.E0));
#450=AXIS2_PLACEMENT_3D('',#447,#448,#449);
#451=PLANE('',#450);
#452=ORIENTED_EDGE('',*,*,#440,.F.);
#453=ORIENTED_EDGE('',*,*,#429,.T.);
#454=EDGE_LOOP('',(#452,#453));
#455=FACE_OUTER_BOUND('',#454,.F.);
#456=ADVANCED_FACE('',(#455),#451,.F.);
#457=CLOSED_SHELL('',(#214,#229,#242,#258,#273,#286,#302,#317,#330,#346,#361,
#374,#390,#405,#418,#433,#446,#456));
#458=MANIFOLD_SOLID_BREP('',#457);
#460=DIMENSIONAL_EXPONENTS(0.E0,0.E0,0.E0,0.E0,0.E0,0.E0,0.E0);
#462=PLANE_ANGLE_MEASURE_WITH_UNIT(PLANE_ANGLE_MEASURE(1.745329251994E-2),#461);
#463=(CONVERSION_BASED_UNIT('DEGREE',#462)NAMED_UNIT(*)PLANE_ANGLE_UNIT());
#465=UNCERTAINTY_MEASURE_WITH_UNIT(LENGTH_MEASURE(1.E-3),#459,'closure',
'Maximum model space distance between geometric entities at asserted connectivities');
#466=(GEOMETRIC_REPRESENTATION_CONTEXT(3)GLOBAL_UNCERTAINTY_ASSIGNED_CONTEXT((
#465))GLOBAL_UNIT_ASSIGNED_CONTEXT((#459,#463,#464))REPRESENTATION_CONTEXT
('ID1','3'));
#468=APPLICATION_CONTEXT(
'CONFIGURATION CONTROLLED 3D DESIGNS OF MECHANICAL PARTS AND ASSEMBLIES');
#469=APPLICATION_PROTOCOL_DEFINITION('international standard',
'config_control_design',1994,#468);
#470=DESIGN_CONTEXT('',#468,'design');
#471=MECHANICAL_CONTEXT('',#468,'mechanical');
#472=PRODUCT('LAY5S-FM','LAY5S-FM','NOT SPECIFIED',(#471));
#473=PRODUCT_DEFINITION_FORMATION_WITH_SPECIFIED_SOURCE('2','LAST_VERSION',#472,
.MADE.);
#477=PRODUCT_CATEGORY('part','');
#478=PRODUCT_RELATED_PRODUCT_CATEGORY('detail','',(#472));
#479=PRODUCT_CATEGORY_RELATIONSHIP('','',#477,#478);
#480=SECURITY_CLASSIFICATION_LEVEL('unclassified');
#481=SECURITY_CLASSIFICATION('','',#480);
#482=CC_DESIGN_SECURITY_CLASSIFICATION(#481,(#473));
#483=APPROVAL_STATUS('approved');
#484=APPROVAL(#483,'');
#485=CC_DESIGN_APPROVAL(#484,(#481,#473,#474));
#486=CALENDAR_DATE(123,25,10);
#487=COORDINATED_UNIVERSAL_TIME_OFFSET(8,0,.AHEAD.);
#488=LOCAL_TIME(11,9,3.6E1,#487);
#489=DATE_AND_TIME(#486,#488);
#490=APPROVAL_DATE_TIME(#489,#484);
#491=DATE_TIME_ROLE('creation_date');
#492=CC_DESIGN_DATE_AND_TIME_ASSIGNMENT(#489,#491,(#474));
#493=DATE_TIME_ROLE('classification_date');
#494=CC_DESIGN_DATE_AND_TIME_ASSIGNMENT(#489,#493,(#481));
#495=PERSON('UNSPECIFIED','UNSPECIFIED',$,$,$,$);
#496=ORGANIZATION('UNSPECIFIED','UNSPECIFIED','UNSPECIFIED');
#497=PERSON_AND_ORGANIZATION(#495,#496);
#498=APPROVAL_ROLE('approver');
#499=APPROVAL_PERSON_ORGANIZATION(#497,#484,#498);
#500=PERSON_AND_ORGANIZATION_ROLE('creator');
#501=CC_DESIGN_PERSON_AND_ORGANIZATION_ASSIGNMENT(#497,#500,(#473,#474));
#502=PERSON_AND_ORGANIZATION_ROLE('design_supplier');
#503=CC_DESIGN_PERSON_AND_ORGANIZATION_ASSIGNMENT(#497,#502,(#473));
#504=PERSON_AND_ORGANIZATION_ROLE('classification_officer');
#505=CC_DESIGN_PERSON_AND_ORGANIZATION_ASSIGNMENT(#497,#504,(#481));
#506=PERSON_AND_ORGANIZATION_ROLE('design_owner');
#507=CC_DESIGN_PERSON_AND_ORGANIZATION_ASSIGNMENT(#497,#506,(#472));
#13=CIRCLE('',#12,1.E1);
#18=CIRCLE('',#17,1.E1);
#23=CIRCLE('',#22,1.E1);
#28=CIRCLE('',#27,1.E1);
#41=CIRCLE('',#40,1.35E1);
#46=CIRCLE('',#45,1.35E1);
#51=CIRCLE('',#50,1.35E1);
#56=CIRCLE('',#55,1.35E1);
#69=CIRCLE('',#68,1.45E1);
#74=CIRCLE('',#73,1.45E1);
#79=CIRCLE('',#78,1.45E1);
#84=CIRCLE('',#83,1.45E1);
#97=CIRCLE('',#96,1.E1);
#102=CIRCLE('',#101,1.E1);
#107=CIRCLE('',#106,1.E1);
#112=CIRCLE('',#111,1.E1);
#125=CIRCLE('',#124,1.5E1);
#130=CIRCLE('',#129,1.5E1);
#135=CIRCLE('',#134,1.5E1);
#148=CIRCLE('',#147,1.5E1);
#153=CIRCLE('',#152,1.47E1);
#158=CIRCLE('',#157,1.47E1);
#208=EDGE_CURVE('',#161,#173,#13,.T.);
#210=EDGE_CURVE('',#161,#173,#18,.T.);
#220=EDGE_CURVE('',#161,#162,#4,.T.);
#222=EDGE_CURVE('',#162,#174,#28,.T.);
#224=EDGE_CURVE('',#173,#174,#8,.T.);
#238=EDGE_CURVE('',#162,#174,#23,.T.);
#248=EDGE_CURVE('',#185,#189,#41,.T.);
#250=EDGE_CURVE('',#185,#189,#46,.T.);
#264=EDGE_CURVE('',#185,#186,#32,.T.);
#266=EDGE_CURVE('',#186,#190,#56,.T.);
#268=EDGE_CURVE('',#189,#190,#36,.T.);
#282=EDGE_CURVE('',#186,#190,#51,.T.);
#292=EDGE_CURVE('',#165,#177,#69,.T.);
#294=EDGE_CURVE('',#165,#177,#74,.T.);
#308=EDGE_CURVE('',#165,#166,#60,.T.);
#310=EDGE_CURVE('',#166,#178,#84,.T.);
#312=EDGE_CURVE('',#177,#178,#64,.T.);
#326=EDGE_CURVE('',#166,#178,#79,.T.);
#340=EDGE_CURVE('',#169,#181,#97,.T.);
#342=EDGE_CURVE('',#169,#181,#102,.T.);
#352=EDGE_CURVE('',#169,#170,#88,.T.);
#354=EDGE_CURVE('',#170,#182,#112,.T.);
#356=EDGE_CURVE('',#181,#182,#92,.T.);
#370=EDGE_CURVE('',#170,#182,#107,.T.);
#380=EDGE_CURVE('',#193,#199,#125,.T.);
#382=EDGE_CURVE('',#193,#199,#130,.T.);
#396=EDGE_CURVE('',#193,#194,#116,.T.);
#398=EDGE_CURVE('',#194,#200,#148,.T.);
#400=EDGE_CURVE('',#199,#200,#120,.T.);
#414=EDGE_CURVE('',#194,#200,#135,.T.);
#424=EDGE_CURVE('',#194,#196,#139,.T.);
#427=EDGE_CURVE('',#200,#202,#143,.T.);
#429=EDGE_CURVE('',#196,#202,#158,.T.);
#440=EDGE_CURVE('',#196,#202,#153,.T.);
#459=(LENGTH_UNIT()NAMED_UNIT(*)SI_UNIT(.MILLI.,.METRE.));
#461=(NAMED_UNIT(*)PLANE_ANGLE_UNIT()SI_UNIT($,.RADIAN.));
#464=(NAMED_UNIT(*)SI_UNIT($,.STERADIAN.)SOLID_ANGLE_UNIT());
#467=ADVANCED_BREP_SHAPE_REPRESENTATION('',(#458),#466);
#474=PRODUCT_DEFINITION('design','',#473,#470);
#475=PRODUCT_DEFINITION_SHAPE('','SHAPE FOR LAY5S-FM.',#474);
#476=SHAPE_DEFINITION_REPRESENTATION(#475,#467);
ENDSEC;
END-ISO-10303-21;
